  0
SECTION
  2
HEADER
  9
$ACADVER
  1
AC1015
  9
$ACADMAINTVER
 70
     6
  9
$DWGCODEPAGE
  3
DOS850
  9
$INSBASE
 10
0.0
 20
0.0
 30
0.0
  9
$EXTMIN
 10
-92.5782
 20
12.8918
 30
1.000000E+20
  9
$EXTMAX
 10
92.5565
 20
99.6998
 30
-1.000000E+20
  9
$LIMMIN
 10
0.0
 20
0.0
  9
$LIMMAX
 10
0.0
 20
0.0
  9
$ORTHOMODE
 70
     0
  9
$REGENMODE
 70
     1
  9
$FILLMODE
 70
     1
  9
$QTEXTMODE
 70
     0
  9
$MIRRTEXT
 70
     1
  9
$LTSCALE
 40
1.0
  9
$ATTMODE
 70
     1
  9
$TEXTSIZE
 40
0.2
  9
$TRACEWID
 40
0.05
  9
$TEXTSTYLE
  7
Standard
  9
$CLAYER
  8
0
  9
$CELTYPE
  6
Continuous
  9
$CECOLOR
 62
   256
  9
$CELTSCALE
 40
1.0
  9
$DISPSILH
 70
     0
  9
$DIMSCALE
 40
1.0
  9
$DIMASZ
 40
0.18
  9
$DIMEXO
 40
0.0625
  9
$DIMDLI
 40
0.38
  9
$DIMRND
 40
0.0
  9
$DIMDLE
 40
0.0
  9
$DIMEXE
 40
0.18
  9
$DIMTP
 40
0.0
  9
$DIMTM
 40
0.0
  9
$DIMTXT
 40
0.18
  9
$DIMCEN
 40
0.09
  9
$DIMTSZ
 40
0.0
  9
$DIMTOL
 70
     0
  9
$DIMLIM
 70
     0
  9
$DIMTIH
 70
     1
  9
$DIMTOH
 70
     1
  9
$DIMSE1
 70
     0
  9
$DIMSE2
 70
     0
  9
$DIMTAD
 70
     0
  9
$DIMZIN
 70
     0
  9
$DIMBLK
  1

  9
$DIMASO
 70
     1
  9
$DIMSHO
 70
     1
  9
$DIMPOST
  1

  9
$DIMAPOST
  1

  9
$DIMALT
 70
     0
  9
$DIMALTD
 70
     2
  9
$DIMALTF
 40
25.4
  9
$DIMLFAC
 40
1.0
  9
$DIMTOFL
 70
     0
  9
$DIMTVP
 40
0.0
  9
$DIMTIX
 70
     0
  9
$DIMSOXD
 70
     0
  9
$DIMSAH
 70
     0
  9
$DIMBLK1
  1

  9
$DIMBLK2
  1

  9
$DIMSTYLE
  2
Standard
  9
$DIMCLRD
 70
     0
  9
$DIMCLRE
 70
     0
  9
$DIMCLRT
 70
     0
  9
$DIMTFAC
 40
1.0
  9
$DIMGAP
 40
0.09
  9
$DIMJUST
 70
     0
  9
$DIMSD1
 70
     0
  9
$DIMSD2
 70
     0
  9
$DIMTOLJ
 70
     1
  9
$DIMTZIN
 70
     0
  9
$DIMALTZ
 70
     0
  9
$DIMALTTZ
 70
     0
  9
$DIMUPT
 70
     0
  9
$DIMDEC
 70
     4
  9
$DIMTDEC
 70
     4
  9
$DIMALTU
 70
     2
  9
$DIMALTTD
 70
     2
  9
$DIMTXSTY
  7
Standard
  9
$DIMAUNIT
 70
     0
  9
$DIMADEC
 70
     0
  9
$DIMALTRND
 40
0.0
  9
$DIMAZIN
 70
     0
  9
$DIMDSEP
 70
     0
  9
$DIMATFIT
 70
     3
  9
$DIMFRAC
 70
     0
  9
$DIMLDRBLK
  1

  9
$DIMLUNIT
 70
     2
  9
$DIMLWD
 70
     0
  9
$DIMLWE
 70
     0
  9
$DIMTMOVE
 70
     0
  9
$LUNITS
 70
     2
  9
$LUPREC
 70
     4
  9
$SKETCHINC
 40
0.1
  9
$FILLETRAD
 40
0.0
  9
$AUNITS
 70
     0
  9
$AUPREC
 70
     0
  9
$MENU
  1
acad
  9
$ELEVATION
 40
0.0
  9
$PELEVATION
 40
0.0
  9
$THICKNESS
 40
0.0
  9
$LIMCHECK
 70
     0
  9
$CHAMFERA
 40
0.0
  9
$CHAMFERB
 40
0.0
  9
$CHAMFERC
 40
0.0
  9
$CHAMFERD
 40
0.0
  9
$SKPOLY
 70
     0
  9
$TDCREATE
 40
0.000000000
  9
$TDUCREATE
 40
0.000000000
  9
$TDUPDATE
 40
0.000000000
  9
$TDUUPDATE
 40
0.000000000
  9
$TDINDWG
 40
0.0000000000
  9
$TDUSRTIMER
 40
0.0000000000
  9
$USRTIMER
 70
     1
  9
$ANGBASE
 50
0.0
  9
$ANGDIR
 70
     0
  9
$PDMODE
 70
     0
  9
$PDSIZE
 40
0.0
  9
$PLINEWID
 40
0.0
  9
$SPLFRAME
 70
     0
  9
$SPLINETYPE
 70
     6
  9
$SPLINESEGS
 70
     8
  9
$HANDSEED
  5
35
  9
$SURFTAB1
 70
     6
  9
$SURFTAB2
 70
     6
  9
$SURFTYPE
 70
     6
  9
$SURFU
 70
     6
  9
$SURFV
 70
     6
  9
$UCSBASE
  2

  9
$UCSNAME
  2

  9
$UCSORG
 10
0.0
 20
0.0
 30
0.0
  9
$UCSXDIR
 10
1.0
 20
0.0
 30
0.0
  9
$UCSYDIR
 10
0.0
 20
1.0
 30
0.0
  9
$UCSORTHOREF
  2

  9
$UCSORTHOVIEW
 70
     0
  9
$UCSORGTOP
 10
0.0
 20
0.0
 30
0.0
  9
$UCSORGBOTTOM
 10
0.0
 20
0.0
 30
0.0
  9
$UCSORGLEFT
 10
0.0
 20
0.0
 30
0.0
  9
$UCSORGRIGHT
 10
0.0
 20
0.0
 30
0.0
  9
$UCSORGFRONT
 10
0.0
 20
0.0
 30
0.0
  9
$UCSORGBACK
 10
0.0
 20
0.0
 30
0.0
  9
$PUCSBASE
  2

  9
$PUCSNAME
  2

  9
$PUCSORG
 10
0.0
 20
0.0
 30
0.0
  9
$PUCSXDIR
 10
1.0
 20
0.0
 30
0.0
  9
$PUCSYDIR
 10
0.0
 20
1.0
 30
0.0
  9
$PUCSORTHOREF
  2

  9
$PUCSORTHOVIEW
 70
     0
  9
$PUCSORGTOP
 10
0.0
 20
0.0
 30
0.0
  9
$PUCSORGBOTTOM
 10
0.0
 20
0.0
 30
0.0
  9
$PUCSORGLEFT
 10
0.0
 20
0.0
 30
0.0
  9
$PUCSORGRIGHT
 10
0.0
 20
0.0
 30
0.0
  9
$PUCSORGFRONT
 10
0.0
 20
0.0
 30
0.0
  9
$PUCSORGBACK
 10
0.0
 20
0.0
 30
0.0
  9
$USERI1
 70
     0
  9
$USERI2
 70
     0
  9
$USERI3
 70
     0
  9
$USERI4
 70
     0
  9
$USERI5
 70
     0
  9
$USERR1
 40
0.0
  9
$USERR2
 40
0.0
  9
$USERR3
 40
0.0
  9
$USERR4
 40
0.0
  9
$USERR5
 40
0.0
  9
$WORLDVIEW
 70
     1
  9
$SHADEDGE
 70
     3
  9
$SHADEDIF
 70
    70
  9
$TILEMODE
 70
     1
  9
$MAXACTVP
 70
    16
  9
$PINSBASE
 10
0.0
 20
0.0
 30
0.0
  9
$PLIMCHECK
 70
     0
  9
$PEXTMIN
 10
1.000000E+20
 20
1.000000E+20
 30
1.000000E+20
  9
$PEXTMAX
 10
-1.000000E+20
 20
-1.000000E+20
 30
-1.000000E+20
  9
$PLIMMIN
 10
0.0
 20
0.0
  9
$PLIMMAX
 10
12.0
 20
9.0
  9
$UNITMODE
 70
     0
  9
$VISRETAIN
 70
     0
  9
$PLINEGEN
 70
     1
  9
$PSLTSCALE
 70
     0
  9
$TREEDEPTH
 70
  3020
  9
$CMLSTYLE
  2
Standard
  9
$CMLJUST
 70
     0
  9
$CMLSCALE
 40
1.0
  9
$PROXYGRAPHICS
 70
     0
  9
$MEASUREMENT
 70
     0
  9
$CELWEIGHT
370
     0
  9
$ENDCAPS
280
     0
  9
$JOINSTYLE
280
     0
  9
$LWDISPLAY
290
     0
  9
$INSUNITS
 70
     4
  9
$HYPERLINKBASE
  1

  9
$XEDIT
290
     1
  9
$CEPSNTYPE
380
     0
  9
$PSTYLEMODE
290
     1
  9
$FINGERPRINTGUID
  2

  9
$VERSIONGUID
  2

  9
$EXTNAMES
290
     1
  9
$PSVPSCALE
 40
0.0
  0
ENDSEC
  0
SECTION
  2
CLASSES
  0
CLASS
  1
LWPOLYLINE
  2
AcDbPolyline
  3
AutoCAD 2000
 90
    32768
280
     0
281
     1
  0
CLASS
  1
IMAGE
  2
AcDbRasterImage
  3
ISM
 90
    32895
280
     0
281
     1
  0
CLASS
  1
OLE2FRAME
  2
AcDbOle2Frame
  3
AutoCAD 2000
 90
    32768
280
     0
281
     1
  0
CLASS
  1
HATCH
  2
AcDbHatch
  3
AutoCAD 2000
 90
    32768
280
     0
281
     1
  0
CLASS
  1
DICTIONARYVAR
  2
AcDbDictionaryVar
  3
AutoCAD 2000
 90
    32768
280
     0
281
     0
  0
CLASS
  1
RASTERVARIABLES
  2
AcDbRasterVariables
  3
ISM
 90
    32768
280
     0
281
     0
  0
CLASS
  1
IMAGEDEF
  2
AcDbRasterImageDef
  3
ISM
 90
    32768
280
     0
281
     0
  0
CLASS
  1
IMAGEDEF_REACTOR
  2
AcDbRasterImageDefReactor
  3
ISM
 90
    32769
280
     0
281
     0
  0
CLASS
  1
IDBUFFER
  2
AcDbIdBuffer
  3
AutoCAD 2000
 90
    32768
280
     0
281
     0
  0
CLASS
  1
SPATIAL_FILTER
  2
AcDbSpatialFilter
  3
AutoCAD 2000
 90
    32768
280
     0
281
     0
  0
CLASS
  1
XRECORD
  2
AcDbXrecord
  3
AutoCAD 2000
 90
    32768
280
     0
281
     0
  0
CLASS
  1
SORTENTSTABLE
  2
AcDbSortentsTable
  3
AutoCAD 2000
 90
    32768
280
     0
281
     0
  0
CLASS
  1
LAYER_INDEX
  2
AcDbLayerIndex
  3
AutoCAD 2000
 90
    32768
280
     0
281
     0
  0
CLASS
  1
SPATIAL_INDEX
  2
AcDbSpatialIndex
  3
AutoCAD 2000
 90
    32768
280
     0
281
     0
  0
CLASS
  1
OBJECT_PTR
  2
CAseDLPNTableRecord
  3
"ASE-LPNTableRecord"
 90
    32769
280
     0
281
     0
  0
CLASS
  1
LAYOUT
  2
AcDbLayout
  3
AutoCAD 2000
 90
        0
280
     0
281
     0
  0
CLASS
  1
PLOTSETTINGS
  2
AcDbPlotSettings
  3
AutoCAD 2000
 90
    32768
280
     0
281
     0
  0
CLASS
  1
ACDBDICTIONARYWDFLT
  2
AcDbDictionaryWithDefault
  3
AutoCAD 2000
 90
        0
280
     0
281
     0
  0
CLASS
  1
ACDBPLACEHOLDER
  2
AcDbPlaceHolder
  3
AutoCAD 2000
 90
        0
280
     0
281
     0
  0
CLASS
  1
VBA_PROJECT
  2
AcDbVbaProject
  3
acadvba
 90
    32768
280
     0
281
     0
  0
CLASS
  1
WIPEOUT
  2
AcDbWipeout
  3
WipeOut|AutoCAD Express Tool|expresstools@autodesk.com
 90
    32895
280
     0
281
     1
  0
CLASS
  1
WIPEOUTVARIABLES
  2
AcDbWipeoutVariables
  3
WipeOut|AutoCAD Express Tool|expresstools@autodesk.com
 90
        0
280
     0
281
     0
  0
CLASS
  1
RTEXT
  2
RText
  3
RText|AutoCAD Express Tool|expresstools@autodesk.com
 90
    32768
280
     0
281
     1
  0
CLASS
  1
ARCALIGNEDTEXT
  2
AcDbArcAlignedText
  3
ATEXT|AutoCAD Express Tool|expresstools@autodesk.com
 90
    32768
280
     0
281
     1
  0
ENDSEC
  0
SECTION
  2
TABLES
  0
TABLE
  2
VPORT
  5
7
100
AcDbSymbolTable
 70
     1
  0
VPORT
  5
15
100
AcDbSymbolTableRecord
100
AcDbViewportTableRecord
  2
*ACTIVE
 70
     0
 10
0.0
 20
0.0
 11
1.0
 21
1.0
 12
6.591288
 22
4.579184
 13
0.0
 23
0.0
 14
1.0
 24
1.0
 15
0.0
 25
0.0
 16
0.0
 26
0.0
 36
1.0
 17
0.0
 27
0.0
 37
0.0
 40
9.158369
 41
0.688564
 42
50.0
 43
0.0
 44
0.0
 50
0.0
 51
0.0
 71
     0
 72
   100
 73
     1
 74
     1
 75
     0
 76
     0
 77
     0
 78
     0
281
     0
 65
     0
110
0.0
120
0.0
130
0.0
111
1.0
121
0.0
131
0.0
112
0.0
122
1.0
132
0.0
345
0
346
0
 79
     0
146
0.0
  0
ENDTAB
  0
TABLE
  2
LTYPE
  5
4
100
AcDbSymbolTable
 70
     3
  0
LTYPE
  5
11
100
AcDbSymbolTableRecord
100
AcDbLinetypeTableRecord
  2
ByBlock
 70
    64
  3

 72
    65
 73
     0
 40
0.0
  0
LTYPE
  5
12
100
AcDbSymbolTableRecord
100
AcDbLinetypeTableRecord
  2
ByLayer
 70
    64
  3

 72
    65
 73
     0
 40
0.0
  0
LTYPE
  5
13
100
AcDbSymbolTableRecord
100
AcDbLinetypeTableRecord
  2
Continuous
 70
    64
  3
Solid line
 72
    65
 73
     0
 40
0.0
  0
ENDTAB
  0
TABLE
  2
LAYER
  5
2
100
AcDbSymbolTable
 70
     3
  0
LAYER
  5
14
100
AcDbSymbolTableRecord
100
AcDbLayerTableRecord
  2
0
 70
     0
 62
     7
  6
Continuous
290
     1
370
    -3
390
1D
  0
LAYER
  5
24
100
AcDbSymbolTableRecord
100
AcDbLayerTableRecord
  2
Vrstva 1
 70
     0
 62
     7
  6
Continuous
290
     1
370
    -3
390
1F
  0
LAYER
  5
25
100
AcDbSymbolTableRecord
100
AcDbLayerTableRecord
  2
Layer 1
 70
     0
 62
     7
  6
Continuous
290
     1
370
    -3
390
1F
  0
ENDTAB
  0
TABLE
  2
STYLE
  5
3
100
AcDbSymbolTable
 70
     1
  0
STYLE
  5
17
100
AcDbSymbolTableRecord
100
AcDbTextStyleTableRecord
  2
Standard
 70
     0
 40
0.0
 41
1.0
 50
0.0
 71
     0
 42
0.0
  3
txt
  4

  0
ENDTAB
  0
TABLE
  2
VIEW
  5
5
100
AcDbSymbolTable
 70
     0
  0
ENDTAB
  0
TABLE
  2
UCS
  5
6
100
AcDbSymbolTable
 70
     0
  0
ENDTAB
  0
TABLE
  2
APPID
  5
8
100
AcDbSymbolTable
 70
     1
  0
APPID
  5
16
100
AcDbSymbolTableRecord
100
AcDbRegAppTableRecord
  2
ACAD
 70
     0
  0
ENDTAB
  0
TABLE
  2
DIMSTYLE
  5
9
100
AcDbSymbolTable
 70
     1
100
AcDbDimStyleTable
 71
     0
  0
DIMSTYLE
105
18
100
AcDbSymbolTableRecord
100
AcDbDimStyleTableRecord
  2
Standard
 70
     0
  3

  4

 40
1.0
 41
0.18
 42
0.0625
 43
0.38
 44
0.18
 45
0.0
 46
0.0
 47
0.0
 48
0.0
 71
     0
 72
     0
 73
     1
 74
     1
 75
     0
 76
     0
 77
     0
 78
     0
 79
     0
140
0.18
141
0.09
142
0.0
143
25.4
144
1.0
145
0.0
146
1.0
147
0.09
148
0.0
170
     0
171
     2
172
     0
173
     0
174
     0
175
     0
176
     0
177
     0
178
     0
179
     0
271
     4
272
     4
273
     2
274
     2
275
     0
276
     0
277
     2
278
    46
279
     0
280
     0
281
     0
282
     0
283
     1
284
     0
285
     0
286
     0
288
     0
340
17
341
0
342
0
343
0
344
0
371
    -2
372
    -2
  0
ENDTAB
  0
TABLE
  2
BLOCK_RECORD
  5
1
100
AcDbSymbolTable
 70
     0
  0
BLOCK_RECORD
  5
A
100
AcDbSymbolTableRecord
100
AcDbBlockTableRecord
  2
*MODEL_SPACE
340
20
  0
BLOCK_RECORD
  5
B
100
AcDbSymbolTableRecord
100
AcDbBlockTableRecord
  2
*PAPER_SPACE
340
21
  0
ENDTAB
  0
ENDSEC
  0
SECTION
  2
BLOCKS
  0
BLOCK
  5
D
100
AcDbEntity
  8
0
100
AcDbBlockBegin
  2
*MODEL_SPACE
 70
     0
 10
0.0
 20
0.0
 30
0.0
  3
*MODEL_SPACE
  1

  0
ENDBLK
  5
E
100
AcDbEntity
  8
0
100
AcDbBlockEnd
  0
BLOCK
  5
F
100
AcDbEntity
 67
     1
  8
0
100
AcDbBlockBegin
  2
*PAPER_SPACE
 70
     0
 10
0.0
 20
0.0
 30
0.0
  3
*PAPER_SPACE
  1

  0
ENDBLK
  5
10
100
AcDbEntity
 67
     1
  8
0
100
AcDbBlockEnd
  0
ENDSEC
  0
SECTION
  2
ENTITIES
  0
SPLINE
  5
26
100
AcDbEntity
  8
Layer 1
 62
     5
100
AcDbSpline
210
0.0
220
0.0
230
1.0
 70
     1
 71
     3
 72
    24
 73
    20
 74
     0
 42
0.0000000001
 43
0.0000000001
 40
0.0
 40
0.0
 40
0.0
 40
0.0
 40
0.2
 40
0.2
 40
0.2
 40
0.2
 40
0.4
 40
0.4
 40
0.4
 40
0.4
 40
0.6000000000000001
 40
0.6000000000000001
 40
0.6000000000000001
 40
0.6000000000000001
 40
0.8
 40
0.8
 40
0.8
 40
0.8
 40
1.0
 40
1.0
 40
1.0
 40
1.0
 10
-52.695700000000002
 20
78.740099999999998
 30
0.0
 10
-53.0351
 20
78.485500000000002
 30
0.0
 10
-53.289700000000003
 20
78.315799999999996
 30
0.0
 10
-53.459400000000002
 20
78.230900000000005
 30
0.0
 10
-53.459400000000002
 20
78.230900000000005
 30
0.0
 10
-53.459400000000002
 20
78.230900000000005
 30
0.0
 10
-53.459400000000002
 20
78.230900000000005
 30
0.0
 10
-53.459400000000002
 20
78.230900000000005
 30
0.0
 10
-53.459400000000002
 20
78.230900000000005
 30
0.0
 10
-53.459400000000002
 20
78.230900000000005
 30
0.0
 10
-52.695700000000002
 20
78.230900000000005
 30
0.0
 10
-52.695700000000002
 20
78.230900000000005
 30
0.0
 10
-52.695700000000002
 20
78.230900000000005
 30
0.0
 10
-52.695700000000002
 20
78.230900000000005
 30
0.0
 10
-52.695700000000002
 20
78.740099999999998
 30
0.0
 10
-52.695700000000002
 20
78.740099999999998
 30
0.0
 10
-52.695700000000002
 20
78.740099999999998
 30
0.0
 10
-52.695700000000002
 20
78.740099999999998
 30
0.0
 10
-52.695700000000002
 20
78.740099999999998
 30
0.0
 10
-52.695700000000002
 20
78.740099999999998
 30
0.0
  0
SPLINE
  5
27
100
AcDbEntity
  8
Layer 1
 62
     5
100
AcDbSpline
210
0.0
220
0.0
230
1.0
 70
     1
 71
     3
 72
    52
 73
    48
 74
     0
 42
0.0000000001
 43
0.0000000001
 40
0.0
 40
0.0
 40
0.0
 40
0.0
 40
0.0833333333333333
 40
0.0833333333333333
 40
0.0833333333333333
 40
0.0833333333333333
 40
0.1666666666666667
 40
0.1666666666666667
 40
0.1666666666666667
 40
0.1666666666666667
 40
0.25
 40
0.25
 40
0.25
 40
0.25
 40
0.3333333333333333
 40
0.3333333333333333
 40
0.3333333333333333
 40
0.3333333333333333
 40
0.4166666666666666
 40
0.4166666666666666
 40
0.4166666666666666
 40
0.4166666666666666
 40
0.4999999999999999
 40
0.4999999999999999
 40
0.4999999999999999
 40
0.4999999999999999
 40
0.5833333333333333
 40
0.5833333333333333
 40
0.5833333333333333
 40
0.5833333333333333
 40
0.6666666666666666
 40
0.6666666666666666
 40
0.6666666666666666
 40
0.6666666666666666
 40
0.75
 40
0.75
 40
0.75
 40
0.75
 40
0.8333333333333334
 40
0.8333333333333334
 40
0.8333333333333334
 40
0.8333333333333334
 40
0.9166666666666667
 40
0.9166666666666667
 40
0.9166666666666667
 40
0.9166666666666667
 40
1.0
 40
1.0
 40
1.0
 40
1.0
 10
-55.495899999999999
 20
78.230900000000005
 30
0.0
 10
-55.495899999999999
 20
78.230900000000005
 30
0.0
 10
-92.578199999999995
 20
78.230900000000005
 30
0.0
 10
-92.578199999999995
 20
78.230900000000005
 30
0.0
 10
-92.578199999999995
 20
78.230900000000005
 30
0.0
 10
-92.578199999999995
 20
78.230900000000005
 30
0.0
 10
-79.001199999999997
 20
97.323599999999999
 30
0.0
 10
-79.001199999999997
 20
97.323599999999999
 30
0.0
 10
-79.001199999999997
 20
97.323599999999999
 30
0.0
 10
-79.001199999999997
 20
97.323599999999999
 30
0.0
 10
-79.001199999999997
 20
97.323599999999999
 30
0.0
 10
-79.001199999999997
 20
97.323599999999999
 30
0.0
 10
-79.001199999999997
 20
97.323599999999999
 30
0.0
 10
-78.831500000000005
 20
97.578199999999995
 30
0.0
 10
-78.407200000000003
 20
98.002499999999998
 30
0.0
 10
-78.746600000000001
 20
98.341899999999995
 30
0.0
 10
-78.746600000000001
 20
98.341899999999995
 30
0.0
 10
-79.255700000000004
 20
98.766199999999998
 30
0.0
 10
-79.764899999999997
 20
99.360200000000006
 30
0.0
 10
-80.274000000000001
 20
99.699600000000004
 30
0.0
 10
-80.274000000000001
 20
99.699600000000004
 30
0.0
 10
-80.274000000000001
 20
99.699600000000004
 30
0.0
 10
-80.274000000000001
 20
99.699600000000004
 30
0.0
 10
-80.274000000000001
 20
99.699600000000004
 30
0.0
 10
-80.274000000000001
 20
99.699600000000004
 30
0.0
 10
-80.274000000000001
 20
99.699600000000004
 30
0.0
 10
-60.078200000000002
 20
99.699600000000004
 30
0.0
 10
-60.078200000000002
 20
99.699600000000004
 30
0.0
 10
-60.078200000000002
 20
99.699600000000004
 30
0.0
 10
-60.078200000000002
 20
99.699600000000004
 30
0.0
 10
-60.078200000000002
 20
99.699600000000004
 30
0.0
 10
-60.078200000000002
 20
99.699600000000004
 30
0.0
 10
-60.078200000000002
 20
99.699600000000004
 30
0.0
 10
-61.096499999999999
 20
98.172200000000004
 30
0.0
 10
-71.915499999999994
 20
82.474299999999999
 30
0.0
 10
-71.660899999999998
 20
82.474299999999999
 30
0.0
 10
-71.660899999999998
 20
82.474299999999999
 30
0.0
 10
-71.660899999999998
 20
82.474299999999999
 30
0.0
 10
-56.174799999999998
 20
82.473699999999994
 30
0.0
 10
-56.174799999999998
 20
82.473699999999994
 30
0.0
 10
-56.174799999999998
 20
82.473699999999994
 30
0.0
 10
-55.0717
 20
82.558599999999998
 30
0.0
 10
-53.159700000000001
 20
82.941699999999997
 30
0.0
 10
-52.056600000000003
 20
83.366
 30
0.0
 10
-52.056600000000003
 20
83.366
 30
0.0
 10
-52.056600000000003
 20
83.366
 30
0.0
 10
-55.495899999999999
 20
78.230900000000005
 30
0.0
 10
-55.495899999999999
 20
78.230900000000005
 30
0.0
  0
SPLINE
  5
28
100
AcDbEntity
  8
Layer 1
 62
     5
100
AcDbSpline
210
0.0
220
0.0
230
1.0
 70
     1
 71
     3
 72
    28
 73
    24
 74
     0
 42
0.0000000001
 43
0.0000000001
 40
0.0
 40
0.0
 40
0.0
 40
0.0
 40
0.1666666666666667
 40
0.1666666666666667
 40
0.1666666666666667
 40
0.1666666666666667
 40
0.3333333333333333
 40
0.3333333333333333
 40
0.3333333333333333
 40
0.3333333333333333
 40
0.5
 40
0.5
 40
0.5
 40
0.5
 40
0.6666666666666666
 40
0.6666666666666666
 40
0.6666666666666666
 40
0.6666666666666666
 40
0.8333333333333333
 40
0.8333333333333333
 40
0.8333333333333333
 40
0.8333333333333333
 40
1.0
 40
1.0
 40
1.0
 40
1.0
 10
-52.695700000000002
 20
82.388900000000007
 30
0.0
 10
-52.695700000000002
 20
82.388900000000007
 30
0.0
 10
-52.695700000000002
 20
83.152600000000007
 30
0.0
 10
-52.695700000000002
 20
83.152600000000007
 30
0.0
 10
-52.695700000000002
 20
83.152600000000007
 30
0.0
 10
-52.695700000000002
 20
83.152600000000007
 30
0.0
 10
-52.695700000000002
 20
83.152600000000007
 30
0.0
 10
-52.695700000000002
 20
83.152600000000007
 30
0.0
 10
-52.695700000000002
 20
83.152600000000007
 30
0.0
 10
-52.441099999999999
 20
83.322299999999998
 30
0.0
 10
-52.186500000000002
 20
83.407200000000003
 30
0.0
 10
-51.932000000000002
 20
83.576899999999995
 30
0.0
 10
-51.932000000000002
 20
83.576899999999995
 30
0.0
 10
-51.932000000000002
 20
83.576899999999995
 30
0.0
 10
-51.932000000000002
 20
83.576899999999995
 30
0.0
 10
-51.932000000000002
 20
83.576899999999995
 30
0.0
 10
-51.932000000000002
 20
83.576899999999995
 30
0.0
 10
-51.932000000000002
 20
83.576899999999995
 30
0.0
 10
-52.695700000000002
 20
82.388900000000007
 30
0.0
 10
-52.695700000000002
 20
82.388900000000007
 30
0.0
 10
-52.695700000000002
 20
82.388900000000007
 30
0.0
 10
-52.695700000000002
 20
82.388900000000007
 30
0.0
 10
-52.695700000000002
 20
82.388900000000007
 30
0.0
 10
-52.695700000000002
 20
82.388900000000007
 30
0.0
  0
SPLINE
  5
29
100
AcDbEntity
  8
Layer 1
 62
     5
100
AcDbSpline
210
0.0
220
0.0
230
1.0
 70
     1
 71
     3
 72
    36
 73
    32
 74
     0
 42
0.0000000001
 43
0.0000000001
 40
0.0
 40
0.0
 40
0.0
 40
0.0
 40
0.125
 40
0.125
 40
0.125
 40
0.125
 40
0.25
 40
0.25
 40
0.25
 40
0.25
 40
0.375
 40
0.375
 40
0.375
 40
0.375
 40
0.5
 40
0.5
 40
0.5
 40
0.5
 40
0.625
 40
0.625
 40
0.625
 40
0.625
 40
0.75
 40
0.75
 40
0.75
 40
0.75
 40
0.875
 40
0.875
 40
0.875
 40
0.875
 40
1.0
 40
1.0
 40
1.0
 40
1.0
 10
-24.183900000000001
 20
86.462000000000003
 30
0.0
 10
-24.183900000000001
 20
86.462000000000003
 30
0.0
 10
-28.1722
 20
86.546899999999994
 30
0.0
 10
-28.1722
 20
86.546899999999994
 30
0.0
 10
-28.1722
 20
86.546899999999994
 30
0.0
 10
-28.1722
 20
86.546899999999994
 30
0.0
 10
-24.477900000000002
 20
88.904799999999994
 30
0.0
 10
-24.477900000000002
 20
88.904799999999994
 30
0.0
 10
-24.477900000000002
 20
88.904799999999994
 30
0.0
 10
-24.477900000000002
 20
88.904799999999994
 30
0.0
 10
-24.477900000000002
 20
88.882499999999993
 30
0.0
 10
-24.477900000000002
 20
88.882499999999993
 30
0.0
 10
-24.477900000000002
 20
88.882499999999993
 30
0.0
 10
-24.477900000000002
 20
88.882499999999993
 30
0.0
 10
-20.110800000000001
 20
91.638199999999998
 30
0.0
 10
-20.110800000000001
 20
91.638199999999998
 30
0.0
 10
-20.110800000000001
 20
91.638199999999998
 30
0.0
 10
-20.110800000000001
 20
91.638199999999998
 30
0.0
 10
-20.110800000000001
 20
86.462000000000003
 30
0.0
 10
-20.110800000000001
 20
86.462000000000003
 30
0.0
 10
-20.110800000000001
 20
86.462000000000003
 30
0.0
 10
-20.110800000000001
 20
86.462000000000003
 30
0.0
 10
-20.110800000000001
 20
86.462000000000003
 30
0.0
 10
-20.110800000000001
 20
86.462000000000003
 30
0.0
 10
-20.110800000000001
 20
86.462000000000003
 30
0.0
 10
-20.110800000000001
 20
86.462000000000003
 30
0.0
 10
-20.110800000000001
 20
86.462000000000003
 30
0.0
 10
-20.110800000000001
 20
86.462000000000003
 30
0.0
 10
-20.110800000000001
 20
86.462000000000003
 30
0.0
 10
-20.110800000000001
 20
86.462000000000003
 30
0.0
 10
-24.183900000000001
 20
86.462000000000003
 30
0.0
 10
-24.183900000000001
 20
86.462000000000003
 30
0.0
  0
SPLINE
  5
2A
100
AcDbEntity
  8
Layer 1
 62
     5
100
AcDbSpline
210
0.0
220
0.0
230
1.0
 70
     1
 71
     3
 72
   104
 73
   100
 74
     0
 42
0.0000000001
 43
0.0000000001
 40
0.0
 40
0.0
 40
0.0
 40
0.0
 40
0.04
 40
0.04
 40
0.04
 40
0.04
 40
0.08
 40
0.08
 40
0.08
 40
0.08
 40
0.12
 40
0.12
 40
0.12
 40
0.12
 40
0.16
 40
0.16
 40
0.16
 40
0.16
 40
0.2
 40
0.2
 40
0.2
 40
0.2
 40
0.24
 40
0.24
 40
0.24
 40
0.24
 40
0.28
 40
0.28
 40
0.28
 40
0.28
 40
0.32
 40
0.32
 40
0.32
 40
0.32
 40
0.36
 40
0.36
 40
0.36
 40
0.36
 40
0.4
 40
0.4
 40
0.4
 40
0.4
 40
0.44
 40
0.44
 40
0.44
 40
0.44
 40
0.4799999999999999
 40
0.4799999999999999
 40
0.4799999999999999
 40
0.4799999999999999
 40
0.5199999999999999
 40
0.5199999999999999
 40
0.5199999999999999
 40
0.5199999999999999
 40
0.5599999999999999
 40
0.5599999999999999
 40
0.5599999999999999
 40
0.5599999999999999
 40
0.6
 40
0.6
 40
0.6
 40
0.6
 40
0.64
 40
0.64
 40
0.64
 40
0.64
 40
0.6800000000000001
 40
0.6800000000000001
 40
0.6800000000000001
 40
0.6800000000000001
 40
0.7200000000000001
 40
0.7200000000000001
 40
0.7200000000000001
 40
0.7200000000000001
 40
0.7600000000000001
 40
0.7600000000000001
 40
0.7600000000000001
 40
0.7600000000000001
 40
0.8000000000000002
 40
0.8000000000000002
 40
0.8000000000000002
 40
0.8000000000000002
 40
0.8400000000000002
 40
0.8400000000000002
 40
0.8400000000000002
 40
0.8400000000000002
 40
0.8800000000000002
 40
0.8800000000000002
 40
0.8800000000000002
 40
0.8800000000000002
 40
0.9200000000000003
 40
0.9200000000000003
 40
0.9200000000000003
 40
0.9200000000000003
 40
0.9600000000000003
 40
0.9600000000000003
 40
0.9600000000000003
 40
0.9600000000000003
 40
1.0
 40
1.0
 40
1.0
 40
1.0
 10
-24.183900000000001
 20
99.699600000000004
 30
0.0
 10
-24.183900000000001
 20
99.699600000000004
 30
0.0
 10
-24.477900000000002
 20
99.699600000000004
 30
0.0
 10
-24.477900000000002
 20
99.699600000000004
 30
0.0
 10
-24.477900000000002
 20
99.699600000000004
 30
0.0
 10
-24.477900000000002
 20
99.699600000000004
 30
0.0
 10
-26.559899999999999
 20
99.699600000000004
 30
0.0
 10
-26.559899999999999
 20
99.699600000000004
 30
0.0
 10
-26.559899999999999
 20
99.699600000000004
 30
0.0
 10
-26.559899999999999
 20
99.699600000000004
 30
0.0
 10
-26.559899999999999
 20
99.699600000000004
 30
0.0
 10
-26.559899999999999
 20
99.699600000000004
 30
0.0
 10
-26.559899999999999
 20
99.699600000000004
 30
0.0
 10
-25.881
 20
99.275300000000001
 30
0.0
 10
-24.947600000000001
 20
98.935900000000004
 30
0.0
 10
-24.693100000000001
 20
98.257000000000005
 30
0.0
 10
-24.693100000000001
 20
98.257000000000005
 30
0.0
 10
-24.523299999999999
 20
97.578199999999995
 30
0.0
 10
-25.3719
 20
97.153899999999993
 30
0.0
 10
-25.796199999999999
 20
96.899299999999997
 30
0.0
 10
-25.796199999999999
 20
96.899299999999997
 30
0.0
 10
-25.881
 20
96.899299999999997
 30
0.0
 10
-47.9437
 20
81.964600000000004
 30
0.0
 10
-52.695700000000002
 20
78.740099999999998
 30
0.0
 10
-52.695700000000002
 20
78.740099999999998
 30
0.0
 10
-52.695700000000002
 20
78.740099999999998
 30
0.0
 10
-52.695700000000002
 20
78.740099999999998
 30
0.0
 10
-52.695700000000002
 20
78.740099999999998
 30
0.0
 10
-52.695700000000002
 20
78.740099999999998
 30
0.0
 10
-52.695700000000002
 20
78.740099999999998
 30
0.0
 10
-52.695700000000002
 20
78.230900000000005
 30
0.0
 10
-52.695700000000002
 20
78.230900000000005
 30
0.0
 10
-52.695700000000002
 20
78.230900000000005
 30
0.0
 10
-52.695700000000002
 20
78.230900000000005
 30
0.0
 10
-35.8093
 20
78.230900000000005
 30
0.0
 10
-35.8093
 20
78.230900000000005
 30
0.0
 10
-35.8093
 20
78.230900000000005
 30
0.0
 10
-35.8093
 20
78.230900000000005
 30
0.0
 10
-35.8093
 20
78.230900000000005
 30
0.0
 10
-35.8093
 20
78.230900000000005
 30
0.0
 10
-35.8093
 20
78.230900000000005
 30
0.0
 10
-36.318399999999997
 20
78.485500000000002
 30
0.0
 10
-37.251800000000003
 20
78.909800000000004
 30
0.0
 10
-37.3367
 20
79.503799999999998
 30
0.0
 10
-37.3367
 20
79.503799999999998
 30
0.0
 10
-37.421500000000002
 20
80.012900000000002
 30
0.0
 10
-37.167000000000002
 20
80.437200000000004
 30
0.0
 10
-36.827500000000001
 20
80.776600000000002
 30
0.0
 10
-36.827500000000001
 20
80.776600000000002
 30
0.0
 10
-36.063800000000001
 20
81.540300000000002
 30
0.0
 10
-35.215299999999999
 20
81.964600000000004
 30
0.0
 10
-34.112099999999998
 20
82.049499999999995
 30
0.0
 10
-34.112099999999998
 20
82.049499999999995
 30
0.0
 10
-30.900700000000001
 20
82.378799999999998
 30
0.0
 10
-27.6892
 20
82.308800000000005
 30
0.0
 10
-24.477900000000002
 20
82.304299999999998
 30
0.0
 10
-24.477900000000002
 20
82.304299999999998
 30
0.0
 10
-24.477900000000002
 20
82.304299999999998
 30
0.0
 10
-24.477900000000002
 20
82.304000000000002
 30
0.0
 10
-24.477900000000002
 20
82.304000000000002
 30
0.0
 10
-24.477900000000002
 20
82.304000000000002
 30
0.0
 10
-24.477900000000002
 20
82.304000000000002
 30
0.0
 10
-24.477900000000002
 20
82.304000000000002
 30
0.0
 10
-24.477900000000002
 20
82.304000000000002
 30
0.0
 10
-24.477900000000002
 20
82.304000000000002
 30
0.0
 10
-24.381
 20
82.304000000000002
 30
0.0
 10
-24.283000000000001
 20
82.304000000000002
 30
0.0
 10
-24.183900000000001
 20
82.304000000000002
 30
0.0
 10
-24.183900000000001
 20
82.304000000000002
 30
0.0
 10
-24.183900000000001
 20
82.304000000000002
 30
0.0
 10
-24.183900000000001
 20
82.304000000000002
 30
0.0
 10
-24.183900000000001
 20
82.304000000000002
 30
0.0
 10
-24.183900000000001
 20
82.304000000000002
 30
0.0
 10
-22.981300000000001
 20
82.304000000000002
 30
0.0
 10
-21.6327
 20
82.304000000000002
 30
0.0
 10
-20.5351
 20
82.304000000000002
 30
0.0
 10
-20.5351
 20
82.304000000000002
 30
0.0
 10
-20.026
 20
82.219200000000001
 30
0.0
 10
-20.110800000000001
 20
81.879800000000003
 30
0.0
 10
-20.110800000000001
 20
81.625200000000007
 30
0.0
 10
-20.110800000000001
 20
81.625200000000007
 30
0.0
 10
-20.110800000000001
 20
80.606899999999996
 30
0.0
 10
-20.110800000000001
 20
79.334100000000007
 30
0.0
 10
-20.110800000000001
 20
78.230900000000005
 30
0.0
 10
-20.110800000000001
 20
78.230900000000005
 30
0.0
 10
-20.110800000000001
 20
78.230900000000005
 30
0.0
 10
-20.110800000000001
 20
78.230900000000005
 30
0.0
 10
-20.110800000000001
 20
78.230900000000005
 30
0.0
 10
-20.110800000000001
 20
78.230900000000005
 30
0.0
 10
-20.110800000000001
 20
78.230900000000005
 30
0.0
 10
-4.3274999999999997
 20
78.230900000000005
 30
0.0
 10
-4.3274999999999997
 20
78.230900000000005
 30
0.0
 10
-4.3274999999999997
 20
78.230900000000005
 30
0.0
 10
-4.3274999999999997
 20
78.230900000000005
 30
0.0
 10
-4.3274999999999997
 20
99.699600000000004
 30
0.0
 10
-4.3274999999999997
 20
99.699600000000004
 30
0.0
 10
-4.3274999999999997
 20
99.699600000000004
 30
0.0
 10
-4.3274999999999997
 20
99.699600000000004
 30
0.0
 10
-24.183900000000001
 20
99.699600000000004
 30
0.0
 10
-24.183900000000001
 20
99.699600000000004
 30
0.0
  0
SPLINE
  5
2B
100
AcDbEntity
  8
Layer 1
 62
     5
100
AcDbSpline
210
0.0
220
0.0
230
1.0
 70
     1
 71
     3
 72
    32
 73
    28
 74
     0
 42
0.0000000001
 43
0.0000000001
 40
0.0
 40
0.0
 40
0.0
 40
0.0
 40
0.1428571428571429
 40
0.1428571428571429
 40
0.1428571428571429
 40
0.1428571428571429
 40
0.2857142857142857
 40
0.2857142857142857
 40
0.2857142857142857
 40
0.2857142857142857
 40
0.4285714285714286
 40
0.4285714285714286
 40
0.4285714285714286
 40
0.4285714285714286
 40
0.5714285714285714
 40
0.5714285714285714
 40
0.5714285714285714
 40
0.5714285714285714
 40
0.7142857142857142
 40
0.7142857142857142
 40
0.7142857142857142
 40
0.7142857142857142
 40
0.857142857142857
 40
0.857142857142857
 40
0.857142857142857
 40
0.857142857142857
 40
1.0
 40
1.0
 40
1.0
 40
1.0
 10
68.711799999999997
 20
86.546899999999994
 30
0.0
 10
68.711799999999997
 20
86.546899999999994
 30
0.0
 10
72.406099999999995
 20
88.904799999999994
 30
0.0
 10
72.406099999999995
 20
88.904799999999994
 30
0.0
 10
72.406099999999995
 20
88.904799999999994
 30
0.0
 10
72.406099999999995
 20
88.904799999999994
 30
0.0
 10
72.406099999999995
 20
88.882499999999993
 30
0.0
 10
72.406099999999995
 20
88.882499999999993
 30
0.0
 10
72.406099999999995
 20
88.882499999999993
 30
0.0
 10
72.406099999999995
 20
88.882499999999993
 30
0.0
 10
76.773200000000003
 20
91.638199999999998
 30
0.0
 10
76.773200000000003
 20
91.638199999999998
 30
0.0
 10
76.773200000000003
 20
91.638199999999998
 30
0.0
 10
76.773200000000003
 20
91.638199999999998
 30
0.0
 10
76.773200000000003
 20
86.462000000000003
 30
0.0
 10
76.773200000000003
 20
86.462000000000003
 30
0.0
 10
76.773200000000003
 20
86.462000000000003
 30
0.0
 10
76.773200000000003
 20
86.462000000000003
 30
0.0
 10
76.773200000000003
 20
86.462000000000003
 30
0.0
 10
76.773200000000003
 20
86.462000000000003
 30
0.0
 10
76.773200000000003
 20
86.462000000000003
 30
0.0
 10
76.773200000000003
 20
86.462000000000003
 30
0.0
 10
76.773200000000003
 20
86.462000000000003
 30
0.0
 10
76.773200000000003
 20
86.462000000000003
 30
0.0
 10
76.773200000000003
 20
86.462000000000003
 30
0.0
 10
76.773200000000003
 20
86.462000000000003
 30
0.0
 10
68.711799999999997
 20
86.546899999999994
 30
0.0
 10
68.711799999999997
 20
86.546899999999994
 30
0.0
  0
SPLINE
  5
2C
100
AcDbEntity
  8
Layer 1
 62
     5
100
AcDbSpline
210
0.0
220
0.0
230
1.0
 70
     1
 71
     3
 72
    76
 73
    72
 74
     0
 42
0.0000000001
 43
0.0000000001
 40
0.0
 40
0.0
 40
0.0
 40
0.0
 40
0.0555555555555556
 40
0.0555555555555556
 40
0.0555555555555556
 40
0.0555555555555556
 40
0.1111111111111111
 40
0.1111111111111111
 40
0.1111111111111111
 40
0.1111111111111111
 40
0.1666666666666667
 40
0.1666666666666667
 40
0.1666666666666667
 40
0.1666666666666667
 40
0.2222222222222222
 40
0.2222222222222222
 40
0.2222222222222222
 40
0.2222222222222222
 40
0.2777777777777778
 40
0.2777777777777778
 40
0.2777777777777778
 40
0.2777777777777778
 40
0.3333333333333334
 40
0.3333333333333334
 40
0.3333333333333334
 40
0.3333333333333334
 40
0.388888888888889
 40
0.388888888888889
 40
0.388888888888889
 40
0.388888888888889
 40
0.4444444444444445
 40
0.4444444444444445
 40
0.4444444444444445
 40
0.4444444444444445
 40
0.5000000000000001
 40
0.5000000000000001
 40
0.5000000000000001
 40
0.5000000000000001
 40
0.5555555555555557
 40
0.5555555555555557
 40
0.5555555555555557
 40
0.5555555555555557
 40
0.6111111111111113
 40
0.6111111111111113
 40
0.6111111111111113
 40
0.6111111111111113
 40
0.6666666666666669
 40
0.6666666666666669
 40
0.6666666666666669
 40
0.6666666666666669
 40
0.7222222222222224
 40
0.7222222222222224
 40
0.7222222222222224
 40
0.7222222222222224
 40
0.777777777777778
 40
0.777777777777778
 40
0.777777777777778
 40
0.777777777777778
 40
0.8333333333333336
 40
0.8333333333333336
 40
0.8333333333333336
 40
0.8333333333333336
 40
0.8888888888888892
 40
0.8888888888888892
 40
0.8888888888888892
 40
0.8888888888888892
 40
0.9444444444444448
 40
0.9444444444444448
 40
0.9444444444444448
 40
0.9444444444444448
 40
1.0
 40
1.0
 40
1.0
 40
1.0
 10
70.324100000000001
 20
99.699600000000004
 30
0.0
 10
70.324100000000001
 20
99.699600000000004
 30
0.0
 10
70.324100000000001
 20
99.699600000000004
 30
0.0
 10
70.324100000000001
 20
99.699600000000004
 30
0.0
 10
70.324100000000001
 20
99.699600000000004
 30
0.0
 10
71.003
 20
99.275300000000001
 30
0.0
 10
71.936400000000006
 20
98.935900000000004
 30
0.0
 10
72.190899999999999
 20
98.257000000000005
 30
0.0
 10
72.190899999999999
 20
98.257000000000005
 30
0.0
 10
72.360699999999994
 20
97.578199999999995
 30
0.0
 10
71.512100000000004
 20
97.153899999999993
 30
0.0
 10
71.087800000000001
 20
96.899299999999997
 30
0.0
 10
71.087800000000001
 20
96.899299999999997
 30
0.0
 10
71.003
 20
96.899299999999997
 30
0.0
 10
48.940300000000001
 20
81.964600000000004
 30
0.0
 10
44.188299999999998
 20
78.740099999999998
 30
0.0
 10
44.188299999999998
 20
78.740099999999998
 30
0.0
 10
44.188299999999998
 20
78.740099999999998
 30
0.0
 10
44.188299999999998
 20
78.740099999999998
 30
0.0
 10
44.188299999999998
 20
78.740099999999998
 30
0.0
 10
44.188299999999998
 20
78.740099999999998
 30
0.0
 10
44.188299999999998
 20
78.740099999999998
 30
0.0
 10
44.188299999999998
 20
78.230900000000005
 30
0.0
 10
44.188299999999998
 20
78.230900000000005
 30
0.0
 10
44.188299999999998
 20
78.230900000000005
 30
0.0
 10
44.188299999999998
 20
78.230900000000005
 30
0.0
 10
61.0747
 20
78.230900000000005
 30
0.0
 10
61.0747
 20
78.230900000000005
 30
0.0
 10
61.0747
 20
78.230900000000005
 30
0.0
 10
61.0747
 20
78.230900000000005
 30
0.0
 10
61.0747
 20
78.230900000000005
 30
0.0
 10
61.0747
 20
78.230900000000005
 30
0.0
 10
61.0747
 20
78.230900000000005
 30
0.0
 10
60.565600000000003
 20
78.485500000000002
 30
0.0
 10
59.632199999999997
 20
78.909800000000004
 30
0.0
 10
59.5473
 20
79.503799999999998
 30
0.0
 10
59.5473
 20
79.503799999999998
 30
0.0
 10
59.462499999999999
 20
80.012900000000002
 30
0.0
 10
59.716999999999999
 20
80.437200000000004
 30
0.0
 10
60.0565
 20
80.776600000000002
 30
0.0
 10
60.0565
 20
80.776600000000002
 30
0.0
 10
60.8202
 20
81.540300000000002
 30
0.0
 10
61.668700000000001
 20
81.964600000000004
 30
0.0
 10
62.771900000000002
 20
82.049499999999995
 30
0.0
 10
62.771900000000002
 20
82.049499999999995
 30
0.0
 10
67.169600000000003
 20
82.500399999999999
 30
0.0
 10
71.870500000000007
 20
82.304000000000002
 30
0.0
 10
76.3489
 20
82.304000000000002
 30
0.0
 10
76.3489
 20
82.304000000000002
 30
0.0
 10
76.858000000000004
 20
82.219200000000001
 30
0.0
 10
76.773200000000003
 20
81.879800000000003
 30
0.0
 10
76.773200000000003
 20
81.625200000000007
 30
0.0
 10
76.773200000000003
 20
81.625200000000007
 30
0.0
 10
76.773200000000003
 20
80.606899999999996
 30
0.0
 10
76.773200000000003
 20
79.334100000000007
 30
0.0
 10
76.773200000000003
 20
78.230900000000005
 30
0.0
 10
76.773200000000003
 20
78.230900000000005
 30
0.0
 10
76.773200000000003
 20
78.230900000000005
 30
0.0
 10
76.773200000000003
 20
78.230900000000005
 30
0.0
 10
76.773200000000003
 20
78.230900000000005
 30
0.0
 10
76.773200000000003
 20
78.230900000000005
 30
0.0
 10
76.773200000000003
 20
78.230900000000005
 30
0.0
 10
92.5565
 20
78.230900000000005
 30
0.0
 10
92.5565
 20
78.230900000000005
 30
0.0
 10
92.5565
 20
78.230900000000005
 30
0.0
 10
92.5565
 20
78.230900000000005
 30
0.0
 10
92.5565
 20
99.699600000000004
 30
0.0
 10
92.5565
 20
99.699600000000004
 30
0.0
 10
92.5565
 20
99.699600000000004
 30
0.0
 10
85.144900000000007
 20
99.699600000000004
 30
0.0
 10
77.734700000000004
 20
99.699600000000004
 30
0.0
 10
70.324100000000001
 20
99.699600000000004
 30
0.0
  0
SPLINE
  5
2D
100
AcDbEntity
  8
Layer 1
 62
     5
100
AcDbSpline
210
0.0
220
0.0
230
1.0
 70
     1
 71
     3
 72
    16
 73
    12
 74
     0
 42
0.0000000001
 43
0.0000000001
 40
0.0
 40
0.0
 40
0.0
 40
0.0
 40
0.3333333333333333
 40
0.3333333333333333
 40
0.3333333333333333
 40
0.3333333333333333
 40
0.6666666666666666
 40
0.6666666666666666
 40
0.6666666666666666
 40
0.6666666666666666
 40
1.0
 40
1.0
 40
1.0
 40
1.0
 10
13.0677
 20
99.699600000000004
 30
0.0
 10
13.0677
 20
99.699600000000004
 30
0.0
 10
13.237399999999999
 20
99.699600000000004
 30
0.0
 10
13.237399999999999
 20
99.699600000000004
 30
0.0
 10
13.237399999999999
 20
99.699600000000004
 30
0.0
 10
13.237399999999999
 20
99.699600000000004
 30
0.0
 10
13.0677
 20
99.699600000000004
 30
0.0
 10
13.0677
 20
99.699600000000004
 30
0.0
 10
13.0677
 20
99.699600000000004
 30
0.0
 10
13.0677
 20
99.699600000000004
 30
0.0
 10
13.0677
 20
99.699600000000004
 30
0.0
 10
13.0677
 20
99.699600000000004
 30
0.0
  0
SPLINE
  5
2E
100
AcDbEntity
  8
Layer 1
 62
     5
100
AcDbSpline
210
0.0
220
0.0
230
1.0
 70
     1
 71
     3
 72
    88
 73
    84
 74
     0
 42
0.0000000001
 43
0.0000000001
 40
0.0
 40
0.0
 40
0.0
 40
0.0
 40
0.0476190476190476
 40
0.0476190476190476
 40
0.0476190476190476
 40
0.0476190476190476
 40
0.0952380952380952
 40
0.0952380952380952
 40
0.0952380952380952
 40
0.0952380952380952
 40
0.1428571428571429
 40
0.1428571428571429
 40
0.1428571428571429
 40
0.1428571428571429
 40
0.1904761904761905
 40
0.1904761904761905
 40
0.1904761904761905
 40
0.1904761904761905
 40
0.2380952380952381
 40
0.2380952380952381
 40
0.2380952380952381
 40
0.2380952380952381
 40
0.2857142857142857
 40
0.2857142857142857
 40
0.2857142857142857
 40
0.2857142857142857
 40
0.3333333333333333
 40
0.3333333333333333
 40
0.3333333333333333
 40
0.3333333333333333
 40
0.3809523809523809
 40
0.3809523809523809
 40
0.3809523809523809
 40
0.3809523809523809
 40
0.4285714285714286
 40
0.4285714285714286
 40
0.4285714285714286
 40
0.4285714285714286
 40
0.4761904761904762
 40
0.4761904761904762
 40
0.4761904761904762
 40
0.4761904761904762
 40
0.5238095238095237
 40
0.5238095238095237
 40
0.5238095238095237
 40
0.5238095238095237
 40
0.5714285714285714
 40
0.5714285714285714
 40
0.5714285714285714
 40
0.5714285714285714
 40
0.6190476190476191
 40
0.6190476190476191
 40
0.6190476190476191
 40
0.6190476190476191
 40
0.6666666666666667
 40
0.6666666666666667
 40
0.6666666666666667
 40
0.6666666666666667
 40
0.7142857142857144
 40
0.7142857142857144
 40
0.7142857142857144
 40
0.7142857142857144
 40
0.7619047619047621
 40
0.7619047619047621
 40
0.7619047619047621
 40
0.7619047619047621
 40
0.8095238095238098
 40
0.8095238095238098
 40
0.8095238095238098
 40
0.8095238095238098
 40
0.8571428571428574
 40
0.8571428571428574
 40
0.8571428571428574
 40
0.8571428571428574
 40
0.9047619047619051
 40
0.9047619047619051
 40
0.9047619047619051
 40
0.9047619047619051
 40
0.9523809523809528
 40
0.9523809523809528
 40
0.9523809523809528
 40
0.9523809523809528
 40
1.0
 40
1.0
 40
1.0
 40
1.0
 10
48.877099999999999
 20
98.257000000000005
 30
0.0
 10
49.725700000000003
 20
97.832800000000006
 30
0.0
 10
50.828800000000001
 20
96.644800000000004
 30
0.0
 10
51.083399999999997
 20
95.711299999999994
 30
0.0
 10
51.083399999999997
 20
95.711299999999994
 30
0.0
 10
51.422800000000002
 20
94.523399999999995
 30
0.0
 10
51.253100000000003
 20
92.401899999999998
 30
0.0
 10
50.913699999999999
 20
91.129099999999994
 30
0.0
 10
50.913699999999999
 20
91.129099999999994
 30
0.0
 10
50.319699999999997
 20
88.837999999999994
 30
0.0
 10
49.046799999999998
 20
86.801400000000001
 30
0.0
 10
47.349699999999999
 20
85.019400000000005
 30
0.0
 10
47.349699999999999
 20
85.019400000000005
 30
0.0
 10
47.349699999999999
 20
85.019400000000005
 30
0.0
 10
47.349699999999999
 20
85.019400000000005
 30
0.0
 10
47.349699999999999
 20
85.019400000000005
 30
0.0
 10
47.349699999999999
 20
85.019400000000005
 30
0.0
 10
45.907200000000003
 20
83.576899999999995
 30
0.0
 10
44.294899999999998
 20
82.388900000000007
 30
0.0
 10
42.597799999999999
 20
81.540300000000002
 30
0.0
 10
42.597799999999999
 20
81.540300000000002
 30
0.0
 10
41.409799999999997
 20
80.946299999999994
 30
0.0
 10
40.052100000000003
 20
80.437200000000004
 30
0.0
 10
38.779200000000003
 20
80.012900000000002
 30
0.0
 10
38.779200000000003
 20
80.012900000000002
 30
0.0
 10
37.676099999999998
 20
79.673500000000004
 30
0.0
 10
36.148699999999998
 20
79.249200000000002
 30
0.0
 10
35.045499999999997
 20
78.994600000000005
 30
0.0
 10
35.045499999999997
 20
78.994600000000005
 30
0.0
 10
33.7727
 20
78.740099999999998
 30
0.0
 10
32.160400000000003
 20
78.485500000000002
 30
0.0
 10
30.7179
 20
78.315799999999996
 30
0.0
 10
30.7179
 20
78.315799999999996
 30
0.0
 10
29.529900000000001
 20
78.146100000000004
 30
0.0
 10
28.850999999999999
 20
78.230900000000005
 30
0.0
 10
28.4267
 20
78.230900000000005
 30
0.0
 10
28.4267
 20
78.230900000000005
 30
0.0
 10
28.4267
 20
78.230900000000005
 30
0.0
 10
28.4267
 20
78.230900000000005
 30
0.0
 10
28.4267
 20
78.230900000000005
 30
0.0
 10
28.4267
 20
78.230900000000005
 30
0.0
 10
18.1602
 20
78.230900000000005
 30
0.0
 10
7.8921000000000001
 20
78.230900000000005
 30
0.0
 10
-2.3757999999999999
 20
78.230900000000005
 30
0.0
 10
-2.3757999999999999
 20
78.230900000000005
 30
0.0
 10
-2.3757999999999999
 20
78.230900000000005
 30
0.0
 10
9.9280000000000008
 20
96.050799999999995
 30
0.0
 10
9.9280000000000008
 20
96.050799999999995
 30
0.0
 10
9.9280000000000008
 20
96.050799999999995
 30
0.0
 10
9.9280000000000008
 20
96.050799999999995
 30
0.0
 10
9.9280000000000008
 20
96.050799999999995
 30
0.0
 10
9.9280000000000008
 20
96.050799999999995
 30
0.0
 10
9.9280000000000008
 20
96.050799999999995
 30
0.0
 10
10.437200000000001
 20
96.729600000000005
 30
0.0
 10
10.7766
 20
97.153899999999993
 30
0.0
 10
10.7766
 20
98.002499999999998
 30
0.0
 10
10.7766
 20
98.002499999999998
 30
0.0
 10
10.7766
 20
98.935900000000004
 30
0.0
 10
9.9280000000000008
 20
99.275300000000001
 30
0.0
 10
9.1643000000000008
 20
99.699600000000004
 30
0.0
 10
9.1643000000000008
 20
99.699600000000004
 30
0.0
 10
9.1643000000000008
 20
99.699600000000004
 30
0.0
 10
9.1643000000000008
 20
99.699600000000004
 30
0.0
 10
9.1643000000000008
 20
99.699600000000004
 30
0.0
 10
9.1643000000000008
 20
99.699600000000004
 30
0.0
 10
19.0364
 20
99.699600000000004
 30
0.0
 10
28.908100000000001
 20
99.699600000000004
 30
0.0
 10
38.779200000000003
 20
99.699600000000004
 30
0.0
 10
38.779200000000003
 20
99.699600000000004
 30
0.0
 10
38.779200000000003
 20
99.699600000000004
 30
0.0
 10
38.779200000000003
 20
99.699600000000004
 30
0.0
 10
38.779200000000003
 20
99.699600000000004
 30
0.0
 10
38.779200000000003
 20
99.699600000000004
 30
0.0
 10
40.391500000000001
 20
99.699600000000004
 30
0.0
 10
42.003799999999998
 20
99.699600000000004
 30
0.0
 10
43.531199999999998
 20
99.529899999999998
 30
0.0
 10
43.531199999999998
 20
99.529899999999998
 30
0.0
 10
44.040300000000002
 20
99.529899999999998
 30
0.0
 10
45.1434
 20
99.444999999999993
 30
0.0
 10
45.991999999999997
 20
99.275300000000001
 30
0.0
 10
45.991999999999997
 20
99.275300000000001
 30
0.0
 10
47.115000000000002
 20
98.994799999999998
 30
0.0
 10
47.8264
 20
98.887500000000003
 30
0.0
 10
48.877099999999999
 20
98.257000000000005
 30
0.0
  0
SPLINE
  5
2F
100
AcDbEntity
  8
Layer 1
 62
     5
100
AcDbSpline
210
0.0
220
0.0
230
1.0
 70
     1
 71
     3
 72
    56
 73
    52
 74
     0
 42
0.0000000001
 43
0.0000000001
 40
0.0
 40
0.0
 40
0.0
 40
0.0
 40
0.0769230769230769
 40
0.0769230769230769
 40
0.0769230769230769
 40
0.0769230769230769
 40
0.1538461538461539
 40
0.1538461538461539
 40
0.1538461538461539
 40
0.1538461538461539
 40
0.2307692307692308
 40
0.2307692307692308
 40
0.2307692307692308
 40
0.2307692307692308
 40
0.3076923076923077
 40
0.3076923076923077
 40
0.3076923076923077
 40
0.3076923076923077
 40
0.3846153846153846
 40
0.3846153846153846
 40
0.3846153846153846
 40
0.3846153846153846
 40
0.4615384615384616
 40
0.4615384615384616
 40
0.4615384615384616
 40
0.4615384615384616
 40
0.5384615384615386
 40
0.5384615384615386
 40
0.5384615384615386
 40
0.5384615384615386
 40
0.6153846153846154
 40
0.6153846153846154
 40
0.6153846153846154
 40
0.6153846153846154
 40
0.6923076923076923
 40
0.6923076923076923
 40
0.6923076923076923
 40
0.6923076923076923
 40
0.7692307692307692
 40
0.7692307692307692
 40
0.7692307692307692
 40
0.7692307692307692
 40
0.846153846153846
 40
0.846153846153846
 40
0.846153846153846
 40
0.846153846153846
 40
0.9230769230769229
 40
0.9230769230769229
 40
0.9230769230769229
 40
0.9230769230769229
 40
1.0
 40
1.0
 40
1.0
 40
1.0
 10
26.6447
 20
82.558599999999998
 30
0.0
 10
26.6447
 20
82.558599999999998
 30
0.0
 10
26.6447
 20
82.558599999999998
 30
0.0
 10
26.6447
 20
82.558599999999998
 30
0.0
 10
26.6447
 20
82.558599999999998
 30
0.0
 10
25.032499999999999
 20
81.964600000000004
 30
0.0
 10
23.5899
 20
81.794899999999998
 30
0.0
 10
21.8079
 20
81.709999999999994
 30
0.0
 10
21.8079
 20
81.709999999999994
 30
0.0
 10
21.8079
 20
81.709999999999994
 30
0.0
 10
21.8079
 20
81.709999999999994
 30
0.0
 10
21.8079
 20
81.709999999999994
 30
0.0
 10
21.8079
 20
81.709999999999994
 30
0.0
 10
21.8079
 20
81.709999999999994
 30
0.0
 10
17.056000000000001
 20
81.625200000000007
 30
0.0
 10
17.056000000000001
 20
81.625200000000007
 30
0.0
 10
17.056000000000001
 20
81.625200000000007
 30
0.0
 10
17.056000000000001
 20
81.625200000000007
 30
0.0
 10
26.050699999999999
 20
96.050799999999995
 30
0.0
 10
26.050699999999999
 20
96.050799999999995
 30
0.0
 10
26.050699999999999
 20
96.050799999999995
 30
0.0
 10
26.050699999999999
 20
96.050799999999995
 30
0.0
 10
26.050699999999999
 20
96.050799999999995
 30
0.0
 10
26.050699999999999
 20
96.050799999999995
 30
0.0
 10
26.050699999999999
 20
96.050799999999995
 30
0.0
 10
28.5151
 20
96.050799999999995
 30
0.0
 10
31.681699999999999
 20
96.348600000000005
 30
0.0
 10
34.112099999999998
 20
95.796199999999999
 30
0.0
 10
34.112099999999998
 20
95.796199999999999
 30
0.0
 10
34.960700000000003
 20
95.541600000000003
 30
0.0
 10
35.978999999999999
 20
94.862799999999993
 30
0.0
 10
36.148699999999998
 20
93.929400000000001
 30
0.0
 10
36.148699999999998
 20
93.929400000000001
 30
0.0
 10
36.403199999999998
 20
92.995900000000006
 30
0.0
 10
35.978999999999999
 20
91.638199999999998
 30
0.0
 10
35.469799999999999
 20
90.620000000000005
 30
0.0
 10
35.469799999999999
 20
90.620000000000005
 30
0.0
 10
35.130400000000002
 20
89.941100000000006
 30
0.0
 10
34.451500000000003
 20
89.092500000000001
 30
0.0
 10
34.027299999999997
 20
88.498599999999996
 30
0.0
 10
34.027299999999997
 20
88.498599999999996
 30
0.0
 10
32.924100000000003
 20
87.140799999999999
 30
0.0
 10
31.905799999999999
 20
86.037700000000001
 30
0.0
 10
30.632999999999999
 20
84.934600000000003
 30
0.0
 10
30.632999999999999
 20
84.934600000000003
 30
0.0
 10
29.529900000000001
 20
84.001199999999997
 30
0.0
 10
28.087299999999999
 20
83.152600000000007
 30
0.0
 10
26.6447
 20
82.558599999999998
 30
0.0
 10
26.6447
 20
82.558599999999998
 30
0.0
 10
26.6447
 20
82.558599999999998
 30
0.0
 10
26.6447
 20
82.558599999999998
 30
0.0
 10
26.6447
 20
82.558599999999998
 30
0.0
  0
SPLINE
  5
30
100
AcDbEntity
  8
Layer 1
 62
     5
100
AcDbSpline
210
0.0
220
0.0
230
1.0
 70
     1
 71
     3
 72
    32
 73
    28
 74
     0
 42
0.0000000001
 43
0.0000000001
 40
0.0
 40
0.0
 40
0.0
 40
0.0
 40
0.1428571428571429
 40
0.1428571428571429
 40
0.1428571428571429
 40
0.1428571428571429
 40
0.2857142857142857
 40
0.2857142857142857
 40
0.2857142857142857
 40
0.2857142857142857
 40
0.4285714285714286
 40
0.4285714285714286
 40
0.4285714285714286
 40
0.4285714285714286
 40
0.5714285714285714
 40
0.5714285714285714
 40
0.5714285714285714
 40
0.5714285714285714
 40
0.7142857142857142
 40
0.7142857142857142
 40
0.7142857142857142
 40
0.7142857142857142
 40
0.857142857142857
 40
0.857142857142857
 40
0.857142857142857
 40
0.857142857142857
 40
1.0
 40
1.0
 40
1.0
 40
1.0
 10
-4.3274999999999997
 20
68.132999999999996
 30
0.0
 10
37.760899999999999
 20
68.132999999999996
 30
0.0
 10
72.042900000000003
 20
55.8292
 30
0.0
 10
72.042900000000003
 20
40.555
 30
0.0
 10
72.042900000000003
 20
40.555
 30
0.0
 10
72.042900000000003
 20
25.3657
 30
0.0
 10
37.760899999999999
 20
12.8918
 30
0.0
 10
-4.3274999999999997
 20
12.8918
 30
0.0
 10
-4.3274999999999997
 20
12.8918
 30
0.0
 10
-46.501199999999997
 20
12.8918
 30
0.0
 10
-80.783199999999994
 20
25.3657
 30
0.0
 10
-80.783199999999994
 20
40.555
 30
0.0
 10
-80.783199999999994
 20
40.555
 30
0.0
 10
-80.783199999999994
 20
55.8292
 30
0.0
 10
-46.574199999999998
 20
68.132999999999996
 30
0.0
 10
-4.4005000000000001
 20
68.132999999999996
 30
0.0
 10
-4.4005000000000001
 20
68.132999999999996
 30
0.0
 10
-4.4005000000000001
 20
68.132999999999996
 30
0.0
 10
-4.3274999999999997
 20
68.128699999999995
 30
0.0
 10
-4.3274999999999997
 20
68.128699999999995
 30
0.0
 10
-4.3274999999999997
 20
68.128699999999995
 30
0.0
 10
-4.3274999999999997
 20
68.128699999999995
 30
0.0
 10
-4.3274999999999997
 20
68.132999999999996
 30
0.0
 10
-4.3274999999999997
 20
68.132999999999996
 30
0.0
 10
-4.3274999999999997
 20
68.132999999999996
 30
0.0
 10
-4.3274999999999997
 20
68.132999999999996
 30
0.0
 10
-4.3274999999999997
 20
68.132999999999996
 30
0.0
 10
-4.3274999999999997
 20
68.132999999999996
 30
0.0
  0
SPLINE
  5
31
100
AcDbEntity
  8
Layer 1
 62
     5
100
AcDbSpline
210
0.0
220
0.0
230
1.0
 70
     1
 71
     3
 72
    72
 73
    68
 74
     0
 42
0.0000000001
 43
0.0000000001
 40
0.0
 40
0.0
 40
0.0
 40
0.0
 40
0.0588235294117647
 40
0.0588235294117647
 40
0.0588235294117647
 40
0.0588235294117647
 40
0.1176470588235294
 40
0.1176470588235294
 40
0.1176470588235294
 40
0.1176470588235294
 40
0.1764705882352941
 40
0.1764705882352941
 40
0.1764705882352941
 40
0.1764705882352941
 40
0.2352941176470588
 40
0.2352941176470588
 40
0.2352941176470588
 40
0.2352941176470588
 40
0.2941176470588235
 40
0.2941176470588235
 40
0.2941176470588235
 40
0.2941176470588235
 40
0.3529411764705883
 40
0.3529411764705883
 40
0.3529411764705883
 40
0.3529411764705883
 40
0.411764705882353
 40
0.411764705882353
 40
0.411764705882353
 40
0.411764705882353
 40
0.4705882352941177
 40
0.4705882352941177
 40
0.4705882352941177
 40
0.4705882352941177
 40
0.5294117647058824
 40
0.5294117647058824
 40
0.5294117647058824
 40
0.5294117647058824
 40
0.5882352941176471
 40
0.5882352941176471
 40
0.5882352941176471
 40
0.5882352941176471
 40
0.6470588235294118
 40
0.6470588235294118
 40
0.6470588235294118
 40
0.6470588235294118
 40
0.7058823529411765
 40
0.7058823529411765
 40
0.7058823529411765
 40
0.7058823529411765
 40
0.7647058823529412
 40
0.7647058823529412
 40
0.7647058823529412
 40
0.7647058823529412
 40
0.823529411764706
 40
0.823529411764706
 40
0.823529411764706
 40
0.823529411764706
 40
0.8823529411764707
 40
0.8823529411764707
 40
0.8823529411764707
 40
0.8823529411764707
 40
0.9411764705882354
 40
0.9411764705882354
 40
0.9411764705882354
 40
0.9411764705882354
 40
1.0
 40
1.0
 40
1.0
 40
1.0
 10
-4.3274999999999997
 20
15.352600000000001
 30
0.0
 10
36.063800000000001
 20
15.352600000000001
 30
0.0
 10
69.072999999999993
 20
26.6386
 30
0.0
 10
69.072999999999993
 20
40.555
 30
0.0
 10
69.072999999999993
 20
40.555
 30
0.0
 10
69.072999999999993
 20
54.386600000000001
 30
0.0
 10
36.233499999999999
 20
65.587299999999999
 30
0.0
 10
-3.9032
 20
65.672200000000004
 30
0.0
 10
-3.9032
 20
65.672200000000004
 30
0.0
 10
-3.9881000000000002
 20
65.672200000000004
 30
0.0
 10
-4.0728999999999997
 20
65.672200000000004
 30
0.0
 10
-4.1577999999999999
 20
65.672200000000004
 30
0.0
 10
-4.1577999999999999
 20
65.672200000000004
 30
0.0
 10
-0.0924
 20
60.651699999999998
 30
0.0
 10
3.4377
 20
57.087800000000001
 30
0.0
 10
-0.3393
 20
49.719499999999996
 30
0.0
 10
-0.3393
 20
49.719499999999996
 30
0.0
 10
-3.8359999999999999
 20
43.891599999999997
 30
0.0
 10
-14.015499999999999
 20
29.4008
 30
0.0
 10
-21.213899999999999
 20
31.560199999999998
 30
0.0
 10
-21.213899999999999
 20
31.560199999999998
 30
0.0
 10
-21.892800000000001
 20
32.323900000000002
 30
0.0
 10
-21.213899999999999
 20
33.257399999999997
 30
0.0
 10
-21.0442
 20
33.936199999999999
 30
0.0
 10
-21.0442
 20
33.936199999999999
 30
0.0
 10
-17.7348
 20
44.288699999999999
 30
0.0
 10
-14.3406
 20
54.5563
 30
0.0
 10
-10.7766
 20
64.823599999999999
 30
0.0
 10
-10.7766
 20
64.823599999999999
 30
0.0
 10
-10.946300000000001
 20
65.078199999999995
 30
0.0
 10
-10.522
 20
65.332700000000003
 30
0.0
 10
-10.7766
 20
65.587299999999999
 30
0.0
 10
-10.7766
 20
65.587299999999999
 30
0.0
 10
-10.861499999999999
 20
65.587299999999999
 30
0.0
 10
-10.946300000000001
 20
65.587299999999999
 30
0.0
 10
-10.946300000000001
 20
65.587299999999999
 30
0.0
 10
-10.946300000000001
 20
65.587299999999999
 30
0.0
 10
-48.368000000000002
 20
64.399299999999997
 30
0.0
 10
-77.813199999999995
 20
53.707799999999999
 30
0.0
 10
-77.813199999999995
 20
40.555
 30
0.0
 10
-77.813199999999995
 20
40.555
 30
0.0
 10
-77.813199999999995
 20
40.045900000000003
 30
0.0
 10
-77.728300000000004
 20
39.536700000000003
 30
0.0
 10
-77.643500000000003
 20
39.0276
 30
0.0
 10
-77.643500000000003
 20
39.0276
 30
0.0
 10
-77.643500000000003
 20
38.773000000000003
 30
0.0
 10
-77.558599999999998
 20
38.603299999999997
 30
0.0
 10
-77.473799999999997
 20
38.433599999999998
 30
0.0
 10
-77.473799999999997
 20
38.433599999999998
 30
0.0
 10
-77.473799999999997
 20
38.348700000000001
 30
0.0
 10
-77.473799999999997
 20
38.179000000000002
 30
0.0
 10
-77.473799999999997
 20
38.009300000000003
 30
0.0
 10
-77.473799999999997
 20
38.009300000000003
 30
0.0
 10
-77.388900000000007
 20
37.839599999999997
 30
0.0
 10
-77.304000000000002
 20
37.585000000000001
 30
0.0
 10
-77.219200000000001
 20
37.415300000000002
 30
0.0
 10
-77.219200000000001
 20
37.415300000000002
 30
0.0
 10
-77.219200000000001
 20
37.330500000000001
 30
0.0
 10
-77.134299999999996
 20
37.245600000000003
 30
0.0
 10
-77.134299999999996
 20
37.245600000000003
 30
0.0
 10
-77.134299999999996
 20
37.245600000000003
 30
0.0
 10
-77.134299999999996
 20
37.160699999999999
 30
0.0
 10
-77.134299999999996
 20
37.075899999999997
 30
0.0
 10
-77.049499999999995
 20
37.075899999999997
 30
0.0
 10
-77.049499999999995
 20
37.075899999999997
 30
0.0
 10
-72.042900000000003
 20
24.8566
 30
0.0
 10
-41.3249
 20
15.352600000000001
 30
0.0
 10
-4.3274999999999997
 20
15.352600000000001
 30
0.0
  0
SPLINE
  5
32
100
AcDbEntity
  8
Layer 1
 62
     5
100
AcDbSpline
210
0.0
220
0.0
230
1.0
 70
     1
 71
     3
 72
    60
 73
    56
 74
     0
 42
0.0000000001
 43
0.0000000001
 40
0.0
 40
0.0
 40
0.0
 40
0.0
 40
0.0714285714285714
 40
0.0714285714285714
 40
0.0714285714285714
 40
0.0714285714285714
 40
0.1428571428571429
 40
0.1428571428571429
 40
0.1428571428571429
 40
0.1428571428571429
 40
0.2142857142857143
 40
0.2142857142857143
 40
0.2142857142857143
 40
0.2142857142857143
 40
0.2857142857142857
 40
0.2857142857142857
 40
0.2857142857142857
 40
0.2857142857142857
 40
0.3571428571428571
 40
0.3571428571428571
 40
0.3571428571428571
 40
0.3571428571428571
 40
0.4285714285714285
 40
0.4285714285714285
 40
0.4285714285714285
 40
0.4285714285714285
 40
0.4999999999999999
 40
0.4999999999999999
 40
0.4999999999999999
 40
0.4999999999999999
 40
0.5714285714285713
 40
0.5714285714285713
 40
0.5714285714285713
 40
0.5714285714285713
 40
0.6428571428571427
 40
0.6428571428571427
 40
0.6428571428571427
 40
0.6428571428571427
 40
0.7142857142857141
 40
0.7142857142857141
 40
0.7142857142857141
 40
0.7142857142857141
 40
0.7857142857142855
 40
0.7857142857142855
 40
0.7857142857142855
 40
0.7857142857142855
 40
0.8571428571428569
 40
0.8571428571428569
 40
0.8571428571428569
 40
0.8571428571428569
 40
0.9285714285714283
 40
0.9285714285714283
 40
0.9285714285714283
 40
0.9285714285714283
 40
1.0
 40
1.0
 40
1.0
 40
1.0
 10
17.395399999999999
 20
32.408799999999999
 30
0.0
 10
17.395399999999999
 20
32.408799999999999
 30
0.0
 10
18.159099999999999
 20
32.239100000000001
 30
0.0
 10
18.159099999999999
 20
32.239100000000001
 30
0.0
 10
18.159099999999999
 20
32.239100000000001
 30
0.0
 10
18.159099999999999
 20
32.239100000000001
 30
0.0
 10
18.159099999999999
 20
32.239100000000001
 30
0.0
 10
18.159099999999999
 20
32.239100000000001
 30
0.0
 10
18.159099999999999
 20
32.239100000000001
 30
0.0
 10
18.159099999999999
 20
31.220800000000001
 30
0.0
 10
18.074200000000001
 20
30.372199999999999
 30
0.0
 10
18.074200000000001
 20
29.353999999999999
 30
0.0
 10
18.074200000000001
 20
29.353999999999999
 30
0.0
 10
15.868
 20
29.438800000000001
 30
0.0
 10
13.8314
 20
29.353999999999999
 30
0.0
 10
11.455399999999999
 20
29.099399999999999
 30
0.0
 10
11.455399999999999
 20
29.099399999999999
 30
0.0
 10
11.3706
 20
29.014500000000002
 30
0.0
 10
11.2857
 20
28.9297
 30
0.0
 10
11.116
 20
28.760000000000002
 30
0.0
 10
11.116
 20
28.760000000000002
 30
0.0
 10
11.3706
 20
27.571999999999999
 30
0.0
 10
12.8131
 20
27.6568
 30
0.0
 10
13.492000000000001
 20
26.978000000000002
 30
0.0
 10
13.492000000000001
 20
26.978000000000002
 30
0.0
 10
14.510300000000001
 20
26.468800000000002
 30
0.0
 10
15.783099999999999
 20
25.3657
 30
0.0
 10
15.6983
 20
24.0929
 30
0.0
 10
15.6983
 20
24.0929
 30
0.0
 10
15.3588
 20
24.007999999999999
 30
0.0
 10
15.6134
 20
23.668600000000001
 30
0.0
 10
15.4437
 20
23.498899999999999
 30
0.0
 10
15.4437
 20
23.498899999999999
 30
0.0
 10
11.5662
 20
18.975100000000001
 30
0.0
 10
-26.338100000000001
 20
21.2149
 30
0.0
 10
-27.4085
 20
22.82
 30
0.0
 10
-27.4085
 20
22.82
 30
0.0
 10
-27.068999999999999
 20
23.414000000000001
 30
0.0
 10
-26.984200000000001
 20
24.262599999999999
 30
0.0
 10
-26.6448
 20
24.686900000000001
 30
0.0
 10
-26.6448
 20
24.686900000000001
 30
0.0
 10
-26.305299999999999
 20
24.517099999999999
 30
0.0
 10
-25.711300000000001
 20
24.771699999999999
 30
0.0
 10
-25.3719
 20
24.432300000000001
 30
0.0
 10
-25.3719
 20
24.432300000000001
 30
0.0
 10
-21.748799999999999
 20
23.526599999999998
 30
0.0
 10
3.4965000000000002
 20
21.702500000000001
 30
0.0
 10
4.5820999999999996
 20
26.044599999999999
 30
0.0
 10
4.5820999999999996
 20
26.044599999999999
 30
0.0
 10
4.5820999999999996
 20
28.718800000000002
 30
0.0
 10
1.1987000000000001
 20
27.7286
 30
0.0
 10
0.6162
 20
30.457100000000001
 30
0.0
 10
0.6162
 20
30.457100000000001
 30
0.0
 10
0.3158
 20
33.159999999999997
 30
0.0
 10
16.974900000000002
 20
32.408799999999999
 30
0.0
 10
17.395399999999999
 20
32.408799999999999
 30
0.0
  0
SPLINE
  5
33
100
AcDbEntity
  8
Layer 1
 62
     5
100
AcDbSpline
210
0.0
220
0.0
230
1.0
 70
     1
 71
     3
 72
   140
 73
   136
 74
     0
 42
0.0000000001
 43
0.0000000001
 40
0.0
 40
0.0
 40
0.0
 40
0.0
 40
0.0294117647058824
 40
0.0294117647058824
 40
0.0294117647058824
 40
0.0294117647058824
 40
0.0588235294117647
 40
0.0588235294117647
 40
0.0588235294117647
 40
0.0588235294117647
 40
0.0882352941176471
 40
0.0882352941176471
 40
0.0882352941176471
 40
0.0882352941176471
 40
0.1176470588235294
 40
0.1176470588235294
 40
0.1176470588235294
 40
0.1176470588235294
 40
0.1470588235294118
 40
0.1470588235294118
 40
0.1470588235294118
 40
0.1470588235294118
 40
0.1764705882352941
 40
0.1764705882352941
 40
0.1764705882352941
 40
0.1764705882352941
 40
0.2058823529411765
 40
0.2058823529411765
 40
0.2058823529411765
 40
0.2058823529411765
 40
0.2352941176470589
 40
0.2352941176470589
 40
0.2352941176470589
 40
0.2352941176470589
 40
0.2647058823529412
 40
0.2647058823529412
 40
0.2647058823529412
 40
0.2647058823529412
 40
0.2941176470588235
 40
0.2941176470588235
 40
0.2941176470588235
 40
0.2941176470588235
 40
0.3235294117647059
 40
0.3235294117647059
 40
0.3235294117647059
 40
0.3235294117647059
 40
0.3529411764705883
 40
0.3529411764705883
 40
0.3529411764705883
 40
0.3529411764705883
 40
0.3823529411764706
 40
0.3823529411764706
 40
0.3823529411764706
 40
0.3823529411764706
 40
0.411764705882353
 40
0.411764705882353
 40
0.411764705882353
 40
0.411764705882353
 40
0.4411764705882353
 40
0.4411764705882353
 40
0.4411764705882353
 40
0.4411764705882353
 40
0.4705882352941177
 40
0.4705882352941177
 40
0.4705882352941177
 40
0.4705882352941177
 40
0.5
 40
0.5
 40
0.5
 40
0.5
 40
0.5294117647058824
 40
0.5294117647058824
 40
0.5294117647058824
 40
0.5294117647058824
 40
0.5588235294117647
 40
0.5588235294117647
 40
0.5588235294117647
 40
0.5588235294117647
 40
0.5882352941176471
 40
0.5882352941176471
 40
0.5882352941176471
 40
0.5882352941176471
 40
0.6176470588235294
 40
0.6176470588235294
 40
0.6176470588235294
 40
0.6176470588235294
 40
0.6470588235294118
 40
0.6470588235294118
 40
0.6470588235294118
 40
0.6470588235294118
 40
0.6764705882352942
 40
0.6764705882352942
 40
0.6764705882352942
 40
0.6764705882352942
 40
0.7058823529411765
 40
0.7058823529411765
 40
0.7058823529411765
 40
0.7058823529411765
 40
0.7352941176470589
 40
0.7352941176470589
 40
0.7352941176470589
 40
0.7352941176470589
 40
0.7647058823529412
 40
0.7647058823529412
 40
0.7647058823529412
 40
0.7647058823529412
 40
0.7941176470588236
 40
0.7941176470588236
 40
0.7941176470588236
 40
0.7941176470588236
 40
0.823529411764706
 40
0.823529411764706
 40
0.823529411764706
 40
0.823529411764706
 40
0.8529411764705883
 40
0.8529411764705883
 40
0.8529411764705883
 40
0.8529411764705883
 40
0.8823529411764707
 40
0.8823529411764707
 40
0.8823529411764707
 40
0.8823529411764707
 40
0.911764705882353
 40
0.911764705882353
 40
0.911764705882353
 40
0.911764705882353
 40
0.9411764705882354
 40
0.9411764705882354
 40
0.9411764705882354
 40
0.9411764705882354
 40
0.9705882352941178
 40
0.9705882352941178
 40
0.9705882352941178
 40
0.9705882352941178
 40
1.0
 40
1.0
 40
1.0
 40
1.0
 10
-4.5820999999999996
 20
17.813500000000001
 30
0.0
 10
-3.8184
 20
17.813500000000001
 30
0.0
 10
-3.0547
 20
17.813500000000001
 30
0.0
 10
-2.2061000000000002
 20
17.898299999999999
 30
0.0
 10
-2.2061000000000002
 20
17.898299999999999
 30
0.0
 10
0.2544
 20
17.9832
 30
0.0
 10
2.7151999999999998
 20
17.898299999999999
 30
0.0
 10
5.0911999999999997
 20
18.068100000000001
 30
0.0
 10
5.0911999999999997
 20
18.068100000000001
 30
0.0
 10
10.3523
 20
18.577200000000001
 30
0.0
 10
15.783099999999999
 20
18.661999999999999
 30
0.0
 10
20.959399999999999
 20
19.680299999999999
 30
0.0
 10
20.959399999999999
 20
19.680299999999999
 30
0.0
 10
25.494599999999998
 20
20.3965
 30
0.0
 10
29.666599999999999
 20
21.439699999999998
 30
0.0
 10
34.197000000000003
 20
22.3109
 30
0.0
 10
34.197000000000003
 20
22.3109
 30
0.0
 10
38.164900000000003
 20
23.302800000000001
 30
0.0
 10
41.820500000000003
 20
25.149899999999999
 30
0.0
 10
45.6526
 20
26.299099999999999
 30
0.0
 10
45.6526
 20
26.299099999999999
 30
0.0
 10
47.774000000000001
 20
27.487100000000002
 30
0.0
 10
50.065100000000001
 20
28.420500000000001
 30
0.0
 10
52.101700000000001
 20
29.778199999999998
 30
0.0
 10
52.101700000000001
 20
29.778199999999998
 30
0.0
 10
67.977999999999994
 20
39.774799999999999
 30
0.0
 10
58.0854
 20
48.7179
 30
0.0
 10
47.858899999999998
 20
54.131999999999998
 30
0.0
 10
47.858899999999998
 20
54.131999999999998
 30
0.0
 10
43.386499999999998
 20
56.236699999999999
 30
0.0
 10
38.311999999999998
 20
57.947200000000002
 30
0.0
 10
33.518099999999997
 20
59.053400000000003
 30
0.0
 10
33.518099999999997
 20
59.053400000000003
 30
0.0
 10
31.941099999999999
 20
59.250399999999999
 30
0.0
 10
27.685199999999998
 20
60.7913
 30
0.0
 10
26.475000000000001
 20
60.241399999999999
 30
0.0
 10
26.475000000000001
 20
60.241399999999999
 30
0.0
 10
26.220500000000001
 20
59.986800000000002
 30
0.0
 10
26.305299999999999
 20
59.138199999999998
 30
0.0
 10
26.1356
 20
58.7988
 30
0.0
 10
26.1356
 20
58.7988
 30
0.0
 10
23.1585
 20
50.463000000000001
 30
0.0
 10
15.367900000000001
 20
42.172899999999998
 30
0.0
 10
7.7218
 20
37.585000000000001
 30
0.0
 10
7.7218
 20
37.585000000000001
 30
0.0
 10
5.6003999999999996
 20
36.481900000000003
 30
0.0
 10
3.6486999999999998
 20
34.784799999999997
 30
0.0
 10
1.6970000000000001
 20
33.766500000000001
 30
0.0
 10
1.6970000000000001
 20
33.766500000000001
 30
0.0
 10
-2.8780999999999999
 20
30.906600000000001
 30
0.0
 10
-7.2592999999999996
 20
29.807300000000001
 30
0.0
 10
-12.0495
 20
27.571999999999999
 30
0.0
 10
-12.0495
 20
27.571999999999999
 30
0.0
 10
-13.746600000000001
 20
27.4023
 30
0.0
 10
-15.1891
 20
26.723400000000002
 30
0.0
 10
-16.801400000000001
 20
26.553699999999999
 30
0.0
 10
-16.801400000000001
 20
26.553699999999999
 30
0.0
 10
-17.904499999999999
 20
26.468800000000002
 30
0.0
 10
-18.922799999999999
 20
26.6386
 30
0.0
 10
-19.7714
 20
26.553699999999999
 30
0.0
 10
-19.7714
 20
26.553699999999999
 30
0.0
 10
-19.7714
 20
26.553699999999999
 30
0.0
 10
-19.7714
 20
26.553699999999999
 30
0.0
 10
-19.7714
 20
26.553699999999999
 30
0.0
 10
-19.7714
 20
26.553699999999999
 30
0.0
 10
-19.7714
 20
26.553699999999999
 30
0.0
 10
-19.686499999999999
 20
26.6386
 30
0.0
 10
-19.686499999999999
 20
26.6386
 30
0.0
 10
-19.686499999999999
 20
26.6386
 30
0.0
 10
-19.686499999999999
 20
26.6386
 30
0.0
 10
-19.686499999999999
 20
26.6386
 30
0.0
 10
-19.686499999999999
 20
26.6386
 30
0.0
 10
-19.686499999999999
 20
26.6386
 30
0.0
 10
-20.195699999999999
 20
26.723400000000002
 30
0.0
 10
-20.7897
 20
26.468800000000002
 30
0.0
 10
-21.129100000000001
 20
26.8931
 30
0.0
 10
-21.129100000000001
 20
26.8931
 30
0.0
 10
-22.0625
 20
27.062799999999999
 30
0.0
 10
-23.0808
 20
27.487100000000002
 30
0.0
 10
-23.759599999999999
 20
28.250800000000002
 30
0.0
 10
-23.759599999999999
 20
28.250800000000002
 30
0.0
 10
-24.6082
 20
28.9297
 30
0.0
 10
-24.6082
 20
29.778199999999998
 30
0.0
 10
-24.777899999999999
 20
30.7117
 30
0.0
 10
-24.777899999999999
 20
30.7117
 30
0.0
 10
-24.523399999999999
 20
31.6875
 30
0.0
 10
-24.268699999999999
 20
32.684600000000003
 30
0.0
 10
-23.982299999999999
 20
33.681600000000003
 30
0.0
 10
-23.982299999999999
 20
33.681600000000003
 30
0.0
 10
-21.183299999999999
 20
43.425400000000003
 30
0.0
 10
-17.519600000000001
 20
53.033499999999997
 30
0.0
 10
-14.4254
 20
62.702199999999998
 30
0.0
 10
-14.4254
 20
62.702199999999998
 30
0.0
 10
-14.68
 20
62.956800000000001
 30
0.0
 10
-14.8497
 20
62.702199999999998
 30
0.0
 10
-15.1043
 20
62.787100000000002
 30
0.0
 10
-15.1043
 20
62.787100000000002
 30
0.0
 10
-19.132000000000001
 20
62.477200000000003
 30
0.0
 10
-23.065100000000001
 20
62.138100000000001
 30
0.0
 10
-27.1539
 20
61.683900000000001
 30
0.0
 10
-27.1539
 20
61.683900000000001
 30
0.0
 10
-37.452800000000003
 20
60.123600000000003
 30
0.0
 10
-45.769599999999997
 20
57.9801
 30
0.0
 10
-55.241399999999999
 20
54.131999999999998
 30
0.0
 10
-55.241399999999999
 20
54.131999999999998
 30
0.0
 10
-57.702199999999998
 20
52.944000000000003
 30
0.0
 10
-59.993299999999998
 20
51.840899999999998
 30
0.0
 10
-62.199599999999997
 20
50.2286
 30
0.0
 10
-62.199599999999997
 20
50.2286
 30
0.0
 10
-65.072199999999995
 20
47.094999999999999
 30
0.0
 10
-69.290199999999999
 20
44.4617
 30
0.0
 10
-68.733500000000006
 20
39.451900000000002
 30
0.0
 10
-68.733500000000006
 20
39.451900000000002
 30
0.0
 10
-68.478999999999999
 20
36.991
 30
0.0
 10
-67.8001
 20
36.057600000000001
 30
0.0
 10
-67.121300000000005
 20
35.209099999999999
 30
0.0
 10
-67.121300000000005
 20
35.209099999999999
 30
0.0
 10
-64.151300000000006
 20
31.729900000000001
 30
0.0
 10
-60.4176
 20
29.099399999999999
 30
0.0
 10
-56.259599999999999
 20
26.978000000000002
 30
0.0
 10
-56.259599999999999
 20
26.978000000000002
 30
0.0
 10
-52.362499999999997
 20
25.493200000000002
 30
0.0
 10
-48.949599999999997
 20
24.0044
 30
0.0
 10
-44.8889
 20
22.82
 30
0.0
 10
-44.8889
 20
22.82
 30
0.0
 10
-39.797499999999999
 20
21.2926
 30
0.0
 10
-34.451500000000003
 20
20.698599999999999
 30
0.0
 10
-29.1904
 20
19.425799999999999
 30
0.0
 10
-29.1904
 20
19.425799999999999
 30
0.0
 10
-29.1267
 20
19.5533
 30
0.0
 10
-12.1755
 20
17.9587
 30
0.0
 10
-10.946300000000001
 20
17.898299999999999
 30
0.0
 10
-10.946300000000001
 20
17.898299999999999
 30
0.0
 10
-8.7401
 20
17.898299999999999
 30
0.0
 10
-6.7035
 20
17.813500000000001
 30
0.0
 10
-4.5820999999999996
 20
17.813500000000001
 30
0.0
  0
SPLINE
  5
34
100
AcDbEntity
  8
Layer 1
 62
     5
100
AcDbSpline
210
0.0
220
0.0
230
1.0
 70
     1
 71
     3
 72
    12
 73
     8
 74
     0
 42
0.0000000001
 43
0.0000000001
 40
0.0
 40
0.0
 40
0.0
 40
0.0
 40
0.5
 40
0.5
 40
0.5
 40
0.5
 40
1.0
 40
1.0
 40
1.0
 40
1.0
 10
1.6970000000000001
 20
33.766500000000001
 30
0.0
 10
1.6970000000000001
 20
33.766500000000001
 30
0.0
 10
1.6970000000000001
 20
33.766500000000001
 30
0.0
 10
1.6970000000000001
 20
33.766500000000001
 30
0.0
 10
1.6970000000000001
 20
33.766500000000001
 30
0.0
 10
1.6970000000000001
 20
33.766500000000001
 30
0.0
 10
1.6970000000000001
 20
33.766500000000001
 30
0.0
 10
1.6970000000000001
 20
33.766500000000001
 30
0.0
  0
ENDSEC
  0
SECTION
  2
OBJECTS
  0
DICTIONARY
  5
19
100
AcDbDictionary
280
     0
281
     1
  3
ACAD_GROUP
350
1A
  3
ACAD_MLINESTYLE
350
1B
  3
ACAD_LAYOUT
350
1E
  3
ACAD_PLOTSETTINGS
350
22
  3
ACAD_PLOTSTYLENAME
350
1F
  3
ACAD_WIPEOUT_VARS
350
23
  0
DICTIONARY
  5
1A
102
{ACAD_REACTORS
330
19
102
}
100
AcDbDictionary
280
     0
281
     1
  0
DICTIONARY
  5
1B
102
{ACAD_REACTORS
330
19
102
}
100
AcDbDictionary
280
     0
281
     1
  3
Standard
350
1C
  0
MLINESTYLE
  5
1C
102
{ACAD_REACTORS
330
1B
102
}
100
AcDbMlineStyle
  2
Standard
 70
     0
  3

 62
     0
 51
90.0
 52
90.0
 71
     2
 49
0.5
 62
   256
  6
BYLAYER
 49
-0.5
 62
   256
  6
BYLAYER
  0
ACDBDICTIONARYWDFLT
  5
1F
102
{ACAD_REACTORS
330
19
102
}
100
AcDbDictionary
281
     1
  3
Normal
350
1D
100
AcDbDictionaryWithDefault
340
1D
  0
ACDBPLACEHOLDER
  5
1D
102
{ACAD_REACTORS
330
1F
102
}
  0
LAYOUT
  5
20
102
{ACAD_REACTORS
330
1E
102
}
100
AcDbPlotSettings
  1

  2

  4

  6

 40
0.0
 41
0.0
 42
0.0
 43
0.0
 44
0.0
 45
0.0
 46
0.0
 47
0.0
 48
0.0
 49
0.0
140
0.0
141
0.0
142
1.0
143
1.0
 70
  1024
 72
     0
 73
     0
 74
     0
  7

 75
     0
147
1.0
148
0.0
149
0.0
100
AcDbLayout
  1
Model
 70
     0
 71
     0
 10
0.0
 20
0.0
 11
0.0
 21
0.0
 12
0.0
 22
0.0
 32
0.0
 14
0.0
 24
0.0
 34
0.0
 15
0.0
 25
0.0
 35
0.0
146
0.0
 13
0.0
 23
0.0
 33
0.0
 16
0.0
 26
0.0
 36
0.0
 17
0.0
 27
0.0
 37
0.0
 76
     0
330
A
331
0
345
0
346
0
  0
LAYOUT
  5
21
102
{ACAD_REACTORS
330
1E
102
}
100
AcDbPlotSettings
  1

  2

  4

  6

 40
0.0
 41
0.0
 42
0.0
 43
0.0
 44
0.0
 45
0.0
 46
0.0
 47
0.0
 48
0.0
 49
0.0
140
0.0
141
0.0
142
1.0
143
1.0
 70
     0
 72
     0
 73
     0
 74
     0
  7

 75
     0
147
1.0
148
0.0
149
0.0
100
AcDbLayout
  1
Layout1
 70
     0
 71
     0
 10
0.0
 20
0.0
 11
0.0
 21
0.0
 12
0.0
 22
0.0
 32
0.0
 14
0.0
 24
0.0
 34
0.0
 15
0.0
 25
0.0
 35
0.0
146
0.0
 13
0.0
 23
0.0
 33
0.0
 16
0.0
 26
0.0
 36
0.0
 17
0.0
 27
0.0
 37
0.0
 76
     0
330
B
331
0
345
0
346
0
  0
DICTIONARY
  5
1E
102
{ACAD_REACTORS
330
19
102
}
100
AcDbDictionary
280
     0
281
     1
  3
Layout1
350
21
  3
Model
350
20
  0
DICTIONARY
  5
22
102
{ACAD_REACTORS
330
19
102
}
100
AcDbDictionary
280
     0
281
     1
  0
WIPEOUTVARIABLES
  5
23
100
AcDbWipeoutVariables
 70
     1
  0
ENDSEC
  0
EOF
